Seite 3 von 111 ErsteErste 12345671353103 ... LetzteLetzte
Ergebnis 41 bis 60 von 2208
  1. #41
    Registriert seit
    28.04.2005
    Ort
    Schleswig-Holstein
    Alter
    41
    Beiträge
    885

    Shoot me!

    find das das auch nich klingt aber warscheinlich spielst du es anders

    hab jetzt mal CG Am F bei always pain gespielt. klingt besser als das em
    Geändert von Charles77 (03.09.2005 um 20:12 Uhr)

  2. #42
    Registriert seit
    30.07.2005
    Ort
    Mittenwald
    Alter
    30
    Beiträge
    35
    hey cooler thread
    mein Papa versucht sich im Moment an Pride und Still haven't found what i'm looking for ... da kommen dann aber eher seine eigenen Versionen/Interpretationen von den Songs raus *lol*

    vl. schieb ich ihm mal Yahweh irgendwie unter

  3. #43
    Registriert seit
    13.02.2005
    Beiträge
    1.898
    @karbico
    Seeehr schön!

    Hat noch irgendwer 'ne passable Begleitung für WOWY und Streets??
    Geändert von ralfonso (04.09.2005 um 09:26 Uhr)
    "Schaust Du hin, so sind die Menschen insgesamt blöde." (Shaggil-kinam-ubib)

  4. #44
    Registriert seit
    28.04.2005
    Ort
    Schleswig-Holstein
    Alter
    41
    Beiträge
    885
    @ ralfonso

    schaum mal hier unter tab www.rawktabs.com


  5. #45
    Registriert seit
    21.04.2004
    Alter
    50
    Beiträge
    197

    Frage Gitarre lernen für linkshändrigen Sechsjährigen

    Mal 'ne ganz andere Frage:
    Mein Sohn Joschua (im Juli 6 geworden), Linkshänder und heiß auf U2 möchte Edge nacheifern und Gitarre lernen. Keine fixe Idee, sondern ein m.E. ernsthaftes Vorhaben. Ich habe da natürlich gar nichts gepusht....
    Ihm das beizubringen ist mich natürlich eine echte Herausforderung!!! Seit 10 Tagen hat er nun eine ganz schöne Kindergitarre (Wert: Euro 160,00). Die Saiten sind schon andersherum aufgezogen, was gar nicht so einfach war.
    Nehme Lehr-Tipps dankbar entgegen (auch gute Linkhinweise)!!!!
    ...come in the name of love

  6. #46
    Registriert seit
    03.03.2005
    Beiträge
    2.186

    This is a place called....

    na was gibt es denn sonst noch, zu was wollt ihr die tabs haben?

  7. #47
    Registriert seit
    11.02.2005
    Ort
    NRW
    Alter
    44
    Beiträge
    446
    Zitat Zitat von Gerrit1974
    na was gibt es denn sonst noch, zu was wollt ihr die tabs haben?
    Na endlich mal ne vernünftige Umsetzung des BAD- Solos der Live- Version!!!!!!!!!!!
    Das darf doch wohl wirklich nicht mein Ernst sein!

  8. #48
    Registriert seit
    03.03.2005
    Beiträge
    2.186
    bad und dann noch die live version? da haste doch zu wenig gefühl für... versuch erstmal was leichterers

  9. #49
    Registriert seit
    28.04.2005
    Ort
    Schleswig-Holstein
    Alter
    41
    Beiträge
    885

    This is a place called.... Bad Live

    E-----12----12-----12----12-----12-----12-----12-----12-----12-----12
    B-14-----14-----14----14----14-----14-----14-----14-----14-----14------

    E-----10-----10-----10-----10-----10-----10-----10
    B-10-----10-----10-----10-----10-----10-----10


    So zum bespiel ist das Solo von Bad. Wie gefällst?

  10. #50
    Registriert seit
    31.03.2002
    Ort
    Sprockhövel
    Alter
    32
    Beiträge
    3.667
    Zitat Zitat von Charles77
    E-----12----12-----12----12-----12-----12-----12-----12-----12-----12
    B-14-----14-----14----14----14-----14-----14-----14-----14-----14------

    E-----10-----10-----10-----10-----10-----10-----10
    B-10-----10-----10-----10-----10-----10-----10


    So zum bespiel ist das Solo von Bad. Wie gefällst?
    Edge spielt auch noch die A und D-Saite dazu, allerdings ohne drauf zu packen.

  11. #51
    Registriert seit
    28.04.2005
    Ort
    Schleswig-Holstein
    Alter
    41
    Beiträge
    885

    This is a place called.... Bad

    aber nicht beidiesem Riff oder?
    Du meinst vielleicht




    E------------------------12-(12)kommt vom delay -----------12-(12) -
    B--------------------------------------------------------------------
    G--------------------------------------------------------------------
    D-12-12-12-12-12-12-11----------12-12-12-12-12-12-11------------
    A--0--0--0--0--0--0---0-----------------0--0--0--0--0--0--0-------------
    E--------------------------------------------------------------------


    E----------------------------------------------------------------------
    B--------------------------10--(10)-------------------------10----10--
    G---9--9--9--9--9--9--7----------9--9--9--9--9--9--7----7-----7-----7
    D---0--0--0--0--0--0--0----------0--0--0--0--0--0--0----------------
    A----------------------------------------------------------------------
    E----------------------------------------------------------------------
    Geändert von Charles77 (10.09.2005 um 14:46 Uhr)

  12. #52
    Registriert seit
    31.03.2002
    Ort
    Sprockhövel
    Alter
    32
    Beiträge
    3.667
    Zitat Zitat von Charles77
    aber nicht beidiesem Riff oder?
    Du meinst vielleicht




    E------------------------12-(12)kommt vom delay -----------12-(12) -
    B--------------------------------------------------------------------
    G--------------------------------------------------------------------
    D-12-12-12-12-12-12-11----------12-12-12-12-12-12-11------------
    A--0--0--0--0--0--0---0----------------0--0--0--0--0--0--0-------------
    E--------------------------------------------------------------------


    E---------------------------------------------------------------------
    B------------------------10--(10)--------------------------10----10--
    G---9--9--9--9--9--9--7----------9--9--9--9--9--9--7---7-----7-----7
    D---0--0--0--0--0--0--0----------0--0--0--0--0--0--0----------------
    A---------------------------------------------------------------------
    E---------------------------------------------------------------------
    Edge spielt den kompletten Song mit Delay, das ist richtig (sind 440ms). Das mit der A-D/-Saite hört man sehr gut auf der Wide Awake-Aufnahme.

  13. #53
    Registriert seit
    28.04.2005
    Ort
    Schleswig-Holstein
    Alter
    41
    Beiträge
    885
    Ich denke dachte immer nur beim ersten Riff spielt er mit delay
    Dachte beim übergang zum zweiten Riff tippt erauf sein Pedal?!

  14. #54
    Registriert seit
    11.02.2005
    Ort
    NRW
    Alter
    44
    Beiträge
    446
    Zitat Zitat von Charles77
    E-----12----12-----12----12-----12-----12-----12-----12-----12-----12
    B-14-----14-----14----14----14-----14-----14-----14-----14-----14-----


    E-----10-----10-----10-----10-----10-----10-----10---
    B--------10-----10-----10-----10-----10-----10-----10
    G------------------------------------------------------
    D--0-------0------0-------0------0------0------0------


    E------------12------12---------10-------10---------
    B-12-(h)14-----14-------14-12-----10--------10-----
    G----------------------------------------------------
    D--------------------------------------0----------0--
    A----------0-------0---------------------------------

    So zum bespiel ist das Solo von Bad. Wie gefällst?
    Habe das oben mal noch ein wenig erweitert...wie gefällt das?
    Sehe gerade, dass beim Einstellen die Abstände anders erscheinen, als beim Schreiben... aber man sieht glaube ich, wie das gemeint ist!!
    Geändert von Gitarrencooper (10.09.2005 um 14:53 Uhr)
    Das darf doch wohl wirklich nicht mein Ernst sein!

  15. #55
    Registriert seit
    28.04.2005
    Ort
    Schleswig-Holstein
    Alter
    41
    Beiträge
    885
    also mit der D und a Leersaite kann nicht so viel anfangen aber mit der ergänzung beim dem übergang von E12 B14 zu E10 B 10 find ich gut

    Ich hörs mir eben nochmal an
    Geändert von Charles77 (10.09.2005 um 15:02 Uhr)

  16. #56
    Registriert seit
    11.02.2005
    Ort
    NRW
    Alter
    44
    Beiträge
    446
    Zitat Zitat von Charles77
    also mit der D und a Leersaite kann nicht so viel anfangen aber mit der ergänzung beim dem übergang von E12 B14 zu E10 B 10 find ich gut
    die beiden Leerseiten müssen ganz flüssig und schnell mitgespielt werden, ohne dass auch nur die kleinste Pause entsteht (alles natürlich mit Delay), dann hört sich das ganz prima an!!
    Dennoch spielt Edge in unterschiedlichen Live- Variationen noch so viele andere Gimmicks mit ein, die ich nicht erfassen kann (bin zu unmusikalisch ). Und gerade die würde ich gerne nachspielen. Bei dem Lovetown- Konzert in Rotterdam zB. spielt er total hohe Töne, die immer wieder super fließend in dieses (relativ) schnelle Solo mit einbezogen werden.... krieg ich nicht hin Würde ich wohl hinbekommen, weiß nur nicht, was ich da spielen muss.
    Geändert von Gitarrencooper (10.09.2005 um 15:17 Uhr)
    Das darf doch wohl wirklich nicht mein Ernst sein!

  17. #57
    Registriert seit
    28.04.2005
    Ort
    Schleswig-Holstein
    Alter
    41
    Beiträge
    885

    U2

    Das wirts wohl sein.
    Was spielst du denn nach dem ersten riff?also bei "to let it go..."

  18. #58
    Registriert seit
    11.02.2005
    Ort
    NRW
    Alter
    44
    Beiträge
    446
    Zitat Zitat von Charles77
    Das wirts wohl sein.
    Was spielst du denn nach dem ersten riff?also bei "to let it go..."
    Da immer im Wechsel A- dur und D- dur greifen und passende Arpeggios dazu spielen
    Das darf doch wohl wirklich nicht mein Ernst sein!

  19. #59
    Registriert seit
    31.03.2002
    Ort
    Sprockhövel
    Alter
    32
    Beiträge
    3.667
    So, hab das jetzt mal so aufgenommen wie ich das meine. Erst spiele ich so wie es hier gepostet wurde (nur B und E-Saite) und dann nimm ich die A- und D-Saite noch leer mit dazu. Hoffe ihr wisst jetzt was ich meine.

    bad.mp3 (780kb)

  20. #60
    Registriert seit
    11.02.2005
    Ort
    NRW
    Alter
    44
    Beiträge
    446
    Zitat Zitat von Dead Man
    So, hab das jetzt mal so aufgenommen wie ich das meine. Erst spiele ich so wie es hier gepostet wurde (nur B und E-Saite) und dann nimm ich die A- und D-Saite noch leer mit dazu. Hoffe ihr wisst jetzt was ich meine.

    bad.mp3 (780kb)
    beim Ausblenden hört man einen aus der Reihe fallenden hohen Ton. Welcher ist das... wie spiele ich das?? Ich bin zu blöd!!
    Welches Multifunktionsgerät benutzt du, welches da eine komplette Band vorgaukelt? Das will ich auch besitzen!!
    Das darf doch wohl wirklich nicht mein Ernst sein!

Ähnliche Themen

  1. Anaheim 2 mp3 download verfügbar!
    Von massism im Forum U2 Links
    Antworten: 13
    Letzter Beitrag: 15.04.2005, 10:23
  2. Willie Williams (Stagedesigner U2 & R.E.M.)
    Von tom9thomas9 im Forum U2 Links
    Antworten: 2
    Letzter Beitrag: 23.11.2004, 11:53

Stichworte

Berechtigungen

  • Neue Themen erstellen: Nein
  • Themen beantworten: Nein
  • Anhänge hochladen: Nein
  • Beiträge bearbeiten: Nein
  •